ISO-10303-21;
HEADER;

FILE_DESCRIPTION(
/* description */ ('VariCAD 2021-1.01 AP-203'),
/* implementation_level */ '2;1');

FILE_NAME(
/* name */ 'M3_D6x7mm_Vibrationsdaempfer_|_vibration-damper.stp',
/* time_stamp */ '2021-01-17T22:22:56+01:00',
/* author */ (''),
/* organization */ (''),
/* preprocessor_version */ 'VariCAD 2021-1.01',
/* originating_system */ 'VariCAD 2021-1.01; kernel version (20180118)',
/* authorisation */ '');

FILE_SCHEMA(('CONFIG_CONTROL_DESIGN'));
ENDSEC;

DATA;
#10=CONTEXT_DEPENDENT_SHAPE_REPRESENTATION(#12,#274);
#11=NEXT_ASSEMBLY_USAGE_OCCURRENCE('','','',#331,#332,'');
#12=(
REPRESENTATION_RELATIONSHIP('','',#345,#346)
REPRESENTATION_RELATIONSHIP_WITH_TRANSFORMATION(#13)
SHAPE_REPRESENTATION_RELATIONSHIP()
);
#13=ITEM_DEFINED_TRANSFORMATION('','',#388,#348);
#14=SHAPE_REPRESENTATION_RELATIONSHIP('','',#346,#15);
#15=ADVANCED_BREP_SHAPE_REPRESENTATION('',(#16,#387),#564);
#16=MANIFOLD_SOLID_BREP('',#17);
#17=CLOSED_SHELL('',(#28,#29,#30,#31,#32,#33,#34,#35,#36,#37,#38,#39,#40,#41,
#42,#43,#44,#45));
#18=CONICAL_SURFACE('',#379,1.2294,0.785398163397445);
#19=CONICAL_SURFACE('',#381,1.2294,0.785398163397445);
#20=CONICAL_SURFACE('',#383,1.2294,0.785398163397445);
#21=CONICAL_SURFACE('',#385,1.2294,0.785398163397445);
#22=FACE_BOUND('',#65,.F.);
#23=FACE_BOUND('',#68,.F.);
#24=PLANE('',#370);
#25=PLANE('',#372);
#26=PLANE('',#375);
#27=PLANE('',#378);
#28=ADVANCED_FACE('',(#46),#152,.T.);
#29=ADVANCED_FACE('',(#22,#47),#24,.T.);
#30=ADVANCED_FACE('',(#48),#153,.T.);
#31=ADVANCED_FACE('',(#23,#49),#25,.T.);
#32=ADVANCED_FACE('',(#50),#154,.T.);
#33=ADVANCED_FACE('',(#51),#155,.T.);
#34=ADVANCED_FACE('',(#52),#26,.T.);
#35=ADVANCED_FACE('',(#53),#156,.T.);
#36=ADVANCED_FACE('',(#54),#157,.T.);
#37=ADVANCED_FACE('',(#55),#27,.T.);
#38=ADVANCED_FACE('',(#56),#18,.T.);
#39=ADVANCED_FACE('',(#57),#158,.T.);
#40=ADVANCED_FACE('',(#58),#19,.T.);
#41=ADVANCED_FACE('',(#59),#159,.T.);
#42=ADVANCED_FACE('',(#60),#20,.T.);
#43=ADVANCED_FACE('',(#61),#160,.T.);
#44=ADVANCED_FACE('',(#62),#21,.T.);
#45=ADVANCED_FACE('',(#63),#161,.T.);
#46=FACE_OUTER_BOUND('',#64,.F.);
#47=FACE_OUTER_BOUND('',#66,.F.);
#48=FACE_OUTER_BOUND('',#67,.F.);
#49=FACE_OUTER_BOUND('',#69,.F.);
#50=FACE_OUTER_BOUND('',#70,.F.);
#51=FACE_OUTER_BOUND('',#71,.F.);
#52=FACE_OUTER_BOUND('',#72,.F.);
#53=FACE_OUTER_BOUND('',#73,.F.);
#54=FACE_OUTER_BOUND('',#74,.F.);
#55=FACE_OUTER_BOUND('',#75,.F.);
#56=FACE_OUTER_BOUND('',#76,.F.);
#57=FACE_OUTER_BOUND('',#77,.F.);
#58=FACE_OUTER_BOUND('',#78,.F.);
#59=FACE_OUTER_BOUND('',#79,.F.);
#60=FACE_OUTER_BOUND('',#80,.F.);
#61=FACE_OUTER_BOUND('',#81,.F.);
#62=FACE_OUTER_BOUND('',#82,.F.);
#63=FACE_OUTER_BOUND('',#83,.F.);
#64=EDGE_LOOP('',(#84,#85,#86,#87));
#65=EDGE_LOOP('',(#88,#89));
#66=EDGE_LOOP('',(#90,#91));
#67=EDGE_LOOP('',(#92,#93,#94,#95));
#68=EDGE_LOOP('',(#96,#97));
#69=EDGE_LOOP('',(#98,#99));
#70=EDGE_LOOP('',(#100,#101,#102,#103));
#71=EDGE_LOOP('',(#104,#105,#106,#107));
#72=EDGE_LOOP('',(#108,#109));
#73=EDGE_LOOP('',(#110,#111,#112,#113));
#74=EDGE_LOOP('',(#114,#115,#116,#117));
#75=EDGE_LOOP('',(#118,#119));
#76=EDGE_LOOP('',(#120,#121,#122,#123));
#77=EDGE_LOOP('',(#124,#125,#126,#127));
#78=EDGE_LOOP('',(#128,#129,#130,#131));
#79=EDGE_LOOP('',(#132,#133,#134,#135));
#80=EDGE_LOOP('',(#136,#137,#138,#139));
#81=EDGE_LOOP('',(#140,#141,#142,#143));
#82=EDGE_LOOP('',(#144,#145,#146,#147));
#83=EDGE_LOOP('',(#148,#149,#150,#151));
#84=ORIENTED_EDGE('',*,*,#194,.T.);
#85=ORIENTED_EDGE('',*,*,#196,.F.);
#86=ORIENTED_EDGE('',*,*,#195,.T.);
#87=ORIENTED_EDGE('',*,*,#197,.T.);
#88=ORIENTED_EDGE('',*,*,#193,.T.);
#89=ORIENTED_EDGE('',*,*,#192,.T.);
#90=ORIENTED_EDGE('',*,*,#198,.F.);
#91=ORIENTED_EDGE('',*,*,#194,.F.);
#92=ORIENTED_EDGE('',*,*,#196,.T.);
#93=ORIENTED_EDGE('',*,*,#198,.T.);
#94=ORIENTED_EDGE('',*,*,#197,.F.);
#95=ORIENTED_EDGE('',*,*,#199,.T.);
#96=ORIENTED_EDGE('',*,*,#191,.T.);
#97=ORIENTED_EDGE('',*,*,#190,.T.);
#98=ORIENTED_EDGE('',*,*,#199,.F.);
#99=ORIENTED_EDGE('',*,*,#195,.F.);
#100=ORIENTED_EDGE('',*,*,#193,.F.);
#101=ORIENTED_EDGE('',*,*,#204,.F.);
#102=ORIENTED_EDGE('',*,*,#203,.T.);
#103=ORIENTED_EDGE('',*,*,#205,.T.);
#104=ORIENTED_EDGE('',*,*,#204,.T.);
#105=ORIENTED_EDGE('',*,*,#192,.F.);
#106=ORIENTED_EDGE('',*,*,#205,.F.);
#107=ORIENTED_EDGE('',*,*,#201,.T.);
#108=ORIENTED_EDGE('',*,*,#200,.F.);
#109=ORIENTED_EDGE('',*,*,#202,.F.);
#110=ORIENTED_EDGE('',*,*,#191,.F.);
#111=ORIENTED_EDGE('',*,*,#210,.F.);
#112=ORIENTED_EDGE('',*,*,#209,.T.);
#113=ORIENTED_EDGE('',*,*,#211,.T.);
#114=ORIENTED_EDGE('',*,*,#210,.T.);
#115=ORIENTED_EDGE('',*,*,#190,.F.);
#116=ORIENTED_EDGE('',*,*,#211,.F.);
#117=ORIENTED_EDGE('',*,*,#207,.T.);
#118=ORIENTED_EDGE('',*,*,#206,.F.);
#119=ORIENTED_EDGE('',*,*,#208,.F.);
#120=ORIENTED_EDGE('',*,*,#202,.T.);
#121=ORIENTED_EDGE('',*,*,#214,.F.);
#122=ORIENTED_EDGE('',*,*,#212,.F.);
#123=ORIENTED_EDGE('',*,*,#213,.T.);
#124=ORIENTED_EDGE('',*,*,#212,.T.);
#125=ORIENTED_EDGE('',*,*,#216,.F.);
#126=ORIENTED_EDGE('',*,*,#203,.F.);
#127=ORIENTED_EDGE('',*,*,#215,.T.);
#128=ORIENTED_EDGE('',*,*,#213,.F.);
#129=ORIENTED_EDGE('',*,*,#217,.F.);
#130=ORIENTED_EDGE('',*,*,#214,.T.);
#131=ORIENTED_EDGE('',*,*,#200,.T.);
#132=ORIENTED_EDGE('',*,*,#215,.F.);
#133=ORIENTED_EDGE('',*,*,#201,.F.);
#134=ORIENTED_EDGE('',*,*,#216,.T.);
#135=ORIENTED_EDGE('',*,*,#217,.T.);
#136=ORIENTED_EDGE('',*,*,#208,.T.);
#137=ORIENTED_EDGE('',*,*,#220,.F.);
#138=ORIENTED_EDGE('',*,*,#218,.F.);
#139=ORIENTED_EDGE('',*,*,#219,.T.);
#140=ORIENTED_EDGE('',*,*,#218,.T.);
#141=ORIENTED_EDGE('',*,*,#222,.F.);
#142=ORIENTED_EDGE('',*,*,#209,.F.);
#143=ORIENTED_EDGE('',*,*,#221,.T.);
#144=ORIENTED_EDGE('',*,*,#219,.F.);
#145=ORIENTED_EDGE('',*,*,#223,.F.);
#146=ORIENTED_EDGE('',*,*,#220,.T.);
#147=ORIENTED_EDGE('',*,*,#206,.T.);
#148=ORIENTED_EDGE('',*,*,#221,.F.);
#149=ORIENTED_EDGE('',*,*,#207,.F.);
#150=ORIENTED_EDGE('',*,*,#222,.T.);
#151=ORIENTED_EDGE('',*,*,#223,.T.);
#152=CYLINDRICAL_SURFACE('',#369,3.);
#153=CYLINDRICAL_SURFACE('',#371,3.);
#154=CYLINDRICAL_SURFACE('',#373,1.5);
#155=CYLINDRICAL_SURFACE('',#374,1.5);
#156=CYLINDRICAL_SURFACE('',#376,1.5);
#157=CYLINDRICAL_SURFACE('',#377,1.5);
#158=CYLINDRICAL_SURFACE('',#380,1.5);
#159=CYLINDRICAL_SURFACE('',#382,1.5);
#160=CYLINDRICAL_SURFACE('',#384,1.5);
#161=CYLINDRICAL_SURFACE('',#386,1.5);
#162=LINE('',#515,#176);
#163=LINE('',#516,#177);
#164=LINE('',#523,#178);
#165=LINE('',#524,#179);
#166=LINE('',#529,#180);
#167=LINE('',#530,#181);
#168=LINE('',#532,#182);
#169=LINE('',#533,#183);
#170=LINE('',#534,#184);
#171=LINE('',#535,#185);
#172=LINE('',#538,#186);
#173=LINE('',#539,#187);
#174=LINE('',#540,#188);
#175=LINE('',#541,#189);
#176=VECTOR('',#405,7.);
#177=VECTOR('',#406,7.);
#178=VECTOR('',#419,1.);
#179=VECTOR('',#420,1.);
#180=VECTOR('',#429,1.);
#181=VECTOR('',#430,1.);
#182=VECTOR('',#433,0.382686189978162);
#183=VECTOR('',#434,0.382686189978162);
#184=VECTOR('',#435,4.7294);
#185=VECTOR('',#436,4.7294);
#186=VECTOR('',#441,0.382686189978162);
#187=VECTOR('',#442,0.382686189978162);
#188=VECTOR('',#443,4.7294);
#189=VECTOR('',#444,4.7294);
#190=EDGE_CURVE('',#263,#262,#224,.T.);
#191=EDGE_CURVE('',#262,#263,#225,.T.);
#192=EDGE_CURVE('',#261,#260,#226,.T.);
#193=EDGE_CURVE('',#260,#261,#227,.T.);
#194=EDGE_CURVE('',#259,#258,#228,.T.);
#195=EDGE_CURVE('',#257,#256,#229,.T.);
#196=EDGE_CURVE('',#257,#258,#162,.T.);
#197=EDGE_CURVE('',#256,#259,#163,.T.);
#198=EDGE_CURVE('',#258,#259,#230,.T.);
#199=EDGE_CURVE('',#256,#257,#231,.T.);
#200=EDGE_CURVE('',#255,#254,#232,.T.);
#201=EDGE_CURVE('',#253,#252,#233,.T.);
#202=EDGE_CURVE('',#254,#255,#234,.T.);
#203=EDGE_CURVE('',#252,#253,#235,.T.);
#204=EDGE_CURVE('',#252,#260,#164,.T.);
#205=EDGE_CURVE('',#253,#261,#165,.T.);
#206=EDGE_CURVE('',#251,#250,#236,.T.);
#207=EDGE_CURVE('',#249,#248,#237,.T.);
#208=EDGE_CURVE('',#250,#251,#238,.T.);
#209=EDGE_CURVE('',#248,#249,#239,.T.);
#210=EDGE_CURVE('',#248,#262,#166,.T.);
#211=EDGE_CURVE('',#249,#263,#167,.T.);
#212=EDGE_CURVE('',#247,#246,#240,.T.);
#213=EDGE_CURVE('',#247,#254,#168,.T.);
#214=EDGE_CURVE('',#246,#255,#169,.T.);
#215=EDGE_CURVE('',#252,#247,#170,.T.);
#216=EDGE_CURVE('',#253,#246,#171,.T.);
#217=EDGE_CURVE('',#246,#247,#241,.T.);
#218=EDGE_CURVE('',#245,#244,#242,.T.);
#219=EDGE_CURVE('',#245,#250,#172,.T.);
#220=EDGE_CURVE('',#244,#251,#173,.T.);
#221=EDGE_CURVE('',#248,#245,#174,.T.);
#222=EDGE_CURVE('',#249,#244,#175,.T.);
#223=EDGE_CURVE('',#244,#245,#243,.T.);
#224=CIRCLE('',#349,1.5);
#225=CIRCLE('',#350,1.5);
#226=CIRCLE('',#351,1.5);
#227=CIRCLE('',#352,1.5);
#228=CIRCLE('',#353,3.);
#229=CIRCLE('',#354,3.);
#230=CIRCLE('',#355,3.);
#231=CIRCLE('',#356,3.);
#232=CIRCLE('',#357,1.2294);
#233=CIRCLE('',#358,1.5);
#234=CIRCLE('',#359,1.2294);
#235=CIRCLE('',#360,1.5);
#236=CIRCLE('',#361,1.2294);
#237=CIRCLE('',#362,1.5);
#238=CIRCLE('',#363,1.2294);
#239=CIRCLE('',#364,1.5);
#240=CIRCLE('',#365,1.5);
#241=CIRCLE('',#366,1.5);
#242=CIRCLE('',#367,1.5);
#243=CIRCLE('',#368,1.5);
#244=VERTEX_POINT('',#489);
#245=VERTEX_POINT('',#490);
#246=VERTEX_POINT('',#491);
#247=VERTEX_POINT('',#492);
#248=VERTEX_POINT('',#493);
#249=VERTEX_POINT('',#494);
#250=VERTEX_POINT('',#495);
#251=VERTEX_POINT('',#496);
#252=VERTEX_POINT('',#497);
#253=VERTEX_POINT('',#498);
#254=VERTEX_POINT('',#499);
#255=VERTEX_POINT('',#500);
#256=VERTEX_POINT('',#501);
#257=VERTEX_POINT('',#502);
#258=VERTEX_POINT('',#503);
#259=VERTEX_POINT('',#504);
#260=VERTEX_POINT('',#505);
#261=VERTEX_POINT('',#506);
#262=VERTEX_POINT('',#507);
#263=VERTEX_POINT('',#508);
#264=PRODUCT_CATEGORY_RELATIONSHIP('','',#268,#266);
#265=PRODUCT_CATEGORY_RELATIONSHIP('','',#269,#267);
#266=PRODUCT_RELATED_PRODUCT_CATEGORY('detail','',(#337));
#267=PRODUCT_RELATED_PRODUCT_CATEGORY('detail','',(#338));
#268=PRODUCT_CATEGORY('part','');
#269=PRODUCT_CATEGORY('part','');
#270=SHAPE_DEFINITION_REPRESENTATION(#272,#345);
#271=SHAPE_DEFINITION_REPRESENTATION(#273,#346);
#272=PRODUCT_DEFINITION_SHAPE('','Shape',#331);
#273=PRODUCT_DEFINITION_SHAPE('','Shape',#332);
#274=PRODUCT_DEFINITION_SHAPE('','',#11);
#275=CC_DESIGN_PERSON_AND_ORGANIZATION_ASSIGNMENT(#295,#283,(#335,#331));
#276=CC_DESIGN_PERSON_AND_ORGANIZATION_ASSIGNMENT(#295,#284,(#335));
#277=CC_DESIGN_PERSON_AND_ORGANIZATION_ASSIGNMENT(#295,#285,(#327));
#278=CC_DESIGN_PERSON_AND_ORGANIZATION_ASSIGNMENT(#295,#286,(#337));
#279=CC_DESIGN_PERSON_AND_ORGANIZATION_ASSIGNMENT(#296,#287,(#336,#332));
#280=CC_DESIGN_PERSON_AND_ORGANIZATION_ASSIGNMENT(#296,#288,(#336));
#281=CC_DESIGN_PERSON_AND_ORGANIZATION_ASSIGNMENT(#296,#289,(#328));
#282=CC_DESIGN_PERSON_AND_ORGANIZATION_ASSIGNMENT(#296,#290,(#338));
#283=PERSON_AND_ORGANIZATION_ROLE('creator');
#284=PERSON_AND_ORGANIZATION_ROLE('design_supplier');
#285=PERSON_AND_ORGANIZATION_ROLE('classification_officer');
#286=PERSON_AND_ORGANIZATION_ROLE('design_owner');
#287=PERSON_AND_ORGANIZATION_ROLE('creator');
#288=PERSON_AND_ORGANIZATION_ROLE('design_supplier');
#289=PERSON_AND_ORGANIZATION_ROLE('classification_officer');
#290=PERSON_AND_ORGANIZATION_ROLE('design_owner');
#291=APPROVAL_PERSON_ORGANIZATION(#295,#321,#293);
#292=APPROVAL_PERSON_ORGANIZATION(#296,#322,#294);
#293=APPROVAL_ROLE('approver');
#294=APPROVAL_ROLE('approver');
#295=PERSON_AND_ORGANIZATION(#299,#297);
#296=PERSON_AND_ORGANIZATION(#300,#298);
#297=ORGANIZATION('UNSPECIFIED','UNSPECIFIED','UNSPECIFIED');
#298=ORGANIZATION('UNSPECIFIED','UNSPECIFIED','UNSPECIFIED');
#299=PERSON('UNSPECIFIED','UNSPECIFIED','UNSPECIFIED',$,$,$);
#300=PERSON('UNSPECIFIED','UNSPECIFIED','UNSPECIFIED',$,$,$);
#301=CC_DESIGN_DATE_AND_TIME_ASSIGNMENT(#311,#305,(#331));
#302=CC_DESIGN_DATE_AND_TIME_ASSIGNMENT(#311,#306,(#327));
#303=CC_DESIGN_DATE_AND_TIME_ASSIGNMENT(#312,#307,(#332));
#304=CC_DESIGN_DATE_AND_TIME_ASSIGNMENT(#312,#308,(#328));
#305=DATE_TIME_ROLE('creation_date');
#306=DATE_TIME_ROLE('classification_date');
#307=DATE_TIME_ROLE('creation_date');
#308=DATE_TIME_ROLE('classification_date');
#309=APPROVAL_DATE_TIME(#311,#321);
#310=APPROVAL_DATE_TIME(#312,#322);
#311=DATE_AND_TIME(#317,#313);
#312=DATE_AND_TIME(#318,#314);
#313=LOCAL_TIME(22,22,56.,#315);
#314=LOCAL_TIME(22,22,56.,#316);
#315=COORDINATED_UNIVERSAL_TIME_OFFSET(1,0,.AHEAD.);
#316=COORDINATED_UNIVERSAL_TIME_OFFSET(1,0,.AHEAD.);
#317=CALENDAR_DATE(121,17,1);
#318=CALENDAR_DATE(121,17,1);
#319=CC_DESIGN_APPROVAL(#321,(#327,#335,#331));
#320=CC_DESIGN_APPROVAL(#322,(#328,#336,#332));
#321=APPROVAL(#323,'');
#322=APPROVAL(#324,'');
#323=APPROVAL_STATUS('approved');
#324=APPROVAL_STATUS('approved');
#325=CC_DESIGN_SECURITY_CLASSIFICATION(#327,(#335));
#326=CC_DESIGN_SECURITY_CLASSIFICATION(#328,(#336));
#327=SECURITY_CLASSIFICATION('','',#329);
#328=SECURITY_CLASSIFICATION('','',#330);
#329=SECURITY_CLASSIFICATION_LEVEL('unclassified');
#330=SECURITY_CLASSIFICATION_LEVEL('unclassified');
#331=PRODUCT_DEFINITION('design','',#335,#333);
#332=PRODUCT_DEFINITION('design','',#336,#334);
#333=DESIGN_CONTEXT('',#343,'design');
#334=DESIGN_CONTEXT('',#344,'design');
#335=PRODUCT_DEFINITION_FORMATION_WITH_SPECIFIED_SOURCE('','last version',#337,
.MADE.);
#336=PRODUCT_DEFINITION_FORMATION_WITH_SPECIFIED_SOURCE('','last version',#338,
.MADE.);
#337=PRODUCT('M3_D6x7mm_Vibrationsdaempfer_|_vibration-damper',
'M3_D6x7mm_Vibrationsdaempfer_|_vibration-damper','not specified',(#339));
#338=PRODUCT('Gewindepuffer','Gewindepuffer','not specified',(#340));
#339=MECHANICAL_CONTEXT('',#343,'mechanical');
#340=MECHANICAL_CONTEXT('',#344,'mechanical');
#341=APPLICATION_PROTOCOL_DEFINITION('international standard',
'config_control_design',1994,#343);
#342=APPLICATION_PROTOCOL_DEFINITION('international standard',
'config_control_design',1994,#344);
#343=APPLICATION_CONTEXT('configuration controlled 3D design of mechanical parts
 and assemblies');
#344=APPLICATION_CONTEXT('configuration controlled 3D design of mechanical parts
 and assemblies');
#345=SHAPE_REPRESENTATION('M3_D6x7mm_Vibrationsdaempfer_|_vibration-damper',
(#347,#388),#563);
#346=SHAPE_REPRESENTATION('Gewindepuffer',(#348),#564);
#347=AXIS2_PLACEMENT_3D('',#487,#389,#390);
#348=AXIS2_PLACEMENT_3D('',#488,#391,#392);
#349=AXIS2_PLACEMENT_3D('',#509,#393,#394);
#350=AXIS2_PLACEMENT_3D('',#510,#395,#396);
#351=AXIS2_PLACEMENT_3D('',#511,#397,#398);
#352=AXIS2_PLACEMENT_3D('',#512,#399,#400);
#353=AXIS2_PLACEMENT_3D('',#513,#401,#402);
#354=AXIS2_PLACEMENT_3D('',#514,#403,#404);
#355=AXIS2_PLACEMENT_3D('',#517,#407,#408);
#356=AXIS2_PLACEMENT_3D('',#518,#409,#410);
#357=AXIS2_PLACEMENT_3D('',#519,#411,#412);
#358=AXIS2_PLACEMENT_3D('',#520,#413,#414);
#359=AXIS2_PLACEMENT_3D('',#521,#415,#416);
#360=AXIS2_PLACEMENT_3D('',#522,#417,#418);
#361=AXIS2_PLACEMENT_3D('',#525,#421,#422);
#362=AXIS2_PLACEMENT_3D('',#526,#423,#424);
#363=AXIS2_PLACEMENT_3D('',#527,#425,#426);
#364=AXIS2_PLACEMENT_3D('',#528,#427,#428);
#365=AXIS2_PLACEMENT_3D('',#531,#431,#432);
#366=AXIS2_PLACEMENT_3D('',#536,#437,#438);
#367=AXIS2_PLACEMENT_3D('',#537,#439,#440);
#368=AXIS2_PLACEMENT_3D('',#542,#445,#446);
#369=AXIS2_PLACEMENT_3D('',#543,#447,#448);
#370=AXIS2_PLACEMENT_3D('',#544,#449,#450);
#371=AXIS2_PLACEMENT_3D('',#545,#451,#452);
#372=AXIS2_PLACEMENT_3D('',#546,#453,#454);
#373=AXIS2_PLACEMENT_3D('',#547,#455,#456);
#374=AXIS2_PLACEMENT_3D('',#548,#457,#458);
#375=AXIS2_PLACEMENT_3D('',#549,#459,#460);
#376=AXIS2_PLACEMENT_3D('',#550,#461,#462);
#377=AXIS2_PLACEMENT_3D('',#551,#463,#464);
#378=AXIS2_PLACEMENT_3D('',#552,#465,#466);
#379=AXIS2_PLACEMENT_3D('',#553,#468,#467);
#380=AXIS2_PLACEMENT_3D('',#554,#469,#470);
#381=AXIS2_PLACEMENT_3D('',#555,#472,#471);
#382=AXIS2_PLACEMENT_3D('',#556,#473,#474);
#383=AXIS2_PLACEMENT_3D('',#557,#476,#475);
#384=AXIS2_PLACEMENT_3D('',#558,#477,#478);
#385=AXIS2_PLACEMENT_3D('',#559,#480,#479);
#386=AXIS2_PLACEMENT_3D('',#560,#481,#482);
#387=AXIS2_PLACEMENT_3D('',#561,#483,#484);
#388=AXIS2_PLACEMENT_3D('',#562,#485,#486);
#389=DIRECTION('',(0.,0.,1.));
#390=DIRECTION('',(1.,0.,0.));
#391=DIRECTION('',(0.,0.,1.));
#392=DIRECTION('',(1.,0.,0.));
#393=DIRECTION('',(0.,1.,0.));
#394=DIRECTION('',(0.,0.,-1.));
#395=DIRECTION('',(0.,1.,0.));
#396=DIRECTION('',(0.,0.,1.));
#397=DIRECTION('',(0.,-1.,0.));
#398=DIRECTION('',(0.,0.,-1.));
#399=DIRECTION('',(0.,-1.,0.));
#400=DIRECTION('',(0.,0.,1.));
#401=DIRECTION('',(0.,-1.,0.));
#402=DIRECTION('',(0.,0.,-1.));
#403=DIRECTION('',(0.,1.,0.));
#404=DIRECTION('',(0.,0.,1.));
#405=DIRECTION('',(0.,-1.,0.));
#406=DIRECTION('',(0.,-1.,0.));
#407=DIRECTION('',(0.,-1.,0.));
#408=DIRECTION('',(0.,0.,1.));
#409=DIRECTION('',(0.,1.,0.));
#410=DIRECTION('',(0.,0.,-1.));
#411=DIRECTION('',(0.,-1.,0.));
#412=DIRECTION('',(0.,0.,-1.));
#413=DIRECTION('',(0.,-1.,0.));
#414=DIRECTION('',(0.,0.,-1.));
#415=DIRECTION('',(0.,-1.,0.));
#416=DIRECTION('',(0.,0.,1.));
#417=DIRECTION('',(0.,-1.,0.));
#418=DIRECTION('',(0.,0.,1.));
#419=DIRECTION('',(0.,1.,0.));
#420=DIRECTION('',(0.,1.,0.));
#421=DIRECTION('',(0.,1.,0.));
#422=DIRECTION('',(0.,0.,-1.));
#423=DIRECTION('',(0.,1.,0.));
#424=DIRECTION('',(0.,0.,-1.));
#425=DIRECTION('',(0.,1.,0.));
#426=DIRECTION('',(0.,0.,1.));
#427=DIRECTION('',(0.,1.,0.));
#428=DIRECTION('',(0.,0.,1.));
#429=DIRECTION('',(0.,-1.,0.));
#430=DIRECTION('',(0.,-1.,0.));
#431=DIRECTION('',(0.,-1.,0.));
#432=DIRECTION('',(0.,0.,1.));
#433=DIRECTION('',(0.,-0.707106781186548,-0.707106781186548));
#434=DIRECTION('',(0.,-0.707106781186548,0.707106781186548));
#435=DIRECTION('',(0.,-1.,0.));
#436=DIRECTION('',(0.,-1.,0.));
#437=DIRECTION('',(0.,-1.,0.));
#438=DIRECTION('',(0.,0.,-1.));
#439=DIRECTION('',(0.,1.,0.));
#440=DIRECTION('',(0.,0.,1.));
#441=DIRECTION('',(0.,0.707106781186548,-0.707106781186548));
#442=DIRECTION('',(0.,0.707106781186548,0.707106781186548));
#443=DIRECTION('',(0.,1.,0.));
#444=DIRECTION('',(0.,1.,0.));
#445=DIRECTION('',(0.,1.,0.));
#446=DIRECTION('',(0.,0.,-1.));
#447=DIRECTION('',(0.,1.,0.));
#448=DIRECTION('',(0.,0.,1.));
#449=DIRECTION('',(0.,-1.,0.));
#450=DIRECTION('',(-1.,0.,0.));
#451=DIRECTION('',(0.,1.,0.));
#452=DIRECTION('',(0.,0.,-1.));
#453=DIRECTION('',(0.,1.,0.));
#454=DIRECTION('',(1.,0.,0.));
#455=DIRECTION('',(0.,-1.,0.));
#456=DIRECTION('',(0.,0.,1.));
#457=DIRECTION('',(0.,-1.,0.));
#458=DIRECTION('',(0.,0.,-1.));
#459=DIRECTION('',(0.,-1.,0.));
#460=DIRECTION('',(-1.,0.,0.));
#461=DIRECTION('',(0.,1.,0.));
#462=DIRECTION('',(0.,0.,1.));
#463=DIRECTION('',(0.,1.,0.));
#464=DIRECTION('',(0.,0.,-1.));
#465=DIRECTION('',(0.,1.,0.));
#466=DIRECTION('',(1.,0.,0.));
#467=DIRECTION('',(0.,0.,1.));
#468=DIRECTION('',(0.,1.,0.));
#469=DIRECTION('',(0.,-1.,0.));
#470=DIRECTION('',(0.,0.,1.));
#471=DIRECTION('',(0.,0.,-1.));
#472=DIRECTION('',(0.,1.,0.));
#473=DIRECTION('',(0.,-1.,0.));
#474=DIRECTION('',(0.,0.,-1.));
#475=DIRECTION('',(0.,0.,1.));
#476=DIRECTION('',(0.,-1.,0.));
#477=DIRECTION('',(0.,1.,0.));
#478=DIRECTION('',(0.,0.,1.));
#479=DIRECTION('',(0.,0.,-1.));
#480=DIRECTION('',(0.,-1.,0.));
#481=DIRECTION('',(0.,1.,0.));
#482=DIRECTION('',(0.,0.,-1.));
#483=DIRECTION('',(0.,0.,1.));
#484=DIRECTION('',(1.,0.,0.));
#485=DIRECTION('',(0.,0.,1.));
#486=DIRECTION('',(1.,0.,0.));
#487=CARTESIAN_POINT('',(0.,0.,0.));
#488=CARTESIAN_POINT('',(0.,0.,0.));
#489=CARTESIAN_POINT('',(-24.9999999958157,163.529399600423,-221.842109236683));
#490=CARTESIAN_POINT('',(-24.9999999958157,163.529399600423,-218.842109236683));
#491=CARTESIAN_POINT('',(-24.9999999958156,145.070599600423,-221.842109236683));
#492=CARTESIAN_POINT('',(-24.9999999958156,145.070599600423,-218.842109236683));
#493=CARTESIAN_POINT('',(-24.9999999958157,158.799999600423,-218.842109236683));
#494=CARTESIAN_POINT('',(-24.9999999958157,158.799999600423,-221.842109236683));
#495=CARTESIAN_POINT('',(-24.9999999958157,163.799999600423,-219.112709236682));
#496=CARTESIAN_POINT('',(-24.9999999958157,163.799999600423,-221.571509236683));
#497=CARTESIAN_POINT('',(-24.9999999958156,149.799999600423,-218.842109236683));
#498=CARTESIAN_POINT('',(-24.9999999958156,149.799999600423,-221.842109236683));
#499=CARTESIAN_POINT('',(-24.9999999958156,144.799999600423,-219.112709236682));
#500=CARTESIAN_POINT('',(-24.9999999958156,144.799999600423,-221.571509236683));
#501=CARTESIAN_POINT('',(-24.9999999958157,157.799999600423,-223.342109236683));
#502=CARTESIAN_POINT('',(-24.9999999958157,157.799999600423,-217.342109236683));
#503=CARTESIAN_POINT('',(-24.9999999958157,150.799999600423,-217.342109236683));
#504=CARTESIAN_POINT('',(-24.9999999958157,150.799999600423,-223.342109236683));
#505=CARTESIAN_POINT('',(-24.9999999958156,150.799999600423,-218.842109236683));
#506=CARTESIAN_POINT('',(-24.9999999958156,150.799999600423,-221.842109236683));
#507=CARTESIAN_POINT('',(-24.9999999958157,157.799999600423,-218.842109236683));
#508=CARTESIAN_POINT('',(-24.9999999958157,157.799999600423,-221.842109236683));
#509=CARTESIAN_POINT('',(-24.9999999958157,157.799999600423,-220.342109236683));
#510=CARTESIAN_POINT('',(-24.9999999958157,157.799999600423,-220.342109236683));
#511=CARTESIAN_POINT('',(-24.9999999958156,150.799999600423,-220.342109236683));
#512=CARTESIAN_POINT('',(-24.9999999958156,150.799999600423,-220.342109236683));
#513=CARTESIAN_POINT('',(-24.9999999958157,150.799999600423,-220.342109236683));
#514=CARTESIAN_POINT('',(-24.9999999958157,157.799999600423,-220.342109236683));
#515=CARTESIAN_POINT('',(-24.9999999958157,157.799999600423,-217.342109236683));
#516=CARTESIAN_POINT('',(-24.9999999958157,157.799999600423,-223.342109236683));
#517=CARTESIAN_POINT('',(-24.9999999958157,150.799999600423,-220.342109236683));
#518=CARTESIAN_POINT('',(-24.9999999958157,157.799999600423,-220.342109236683));
#519=CARTESIAN_POINT('',(-24.9999999958156,144.799999600423,-220.342109236683));
#520=CARTESIAN_POINT('',(-24.9999999958156,149.799999600423,-220.342109236683));
#521=CARTESIAN_POINT('',(-24.9999999958156,144.799999600423,-220.342109236683));
#522=CARTESIAN_POINT('',(-24.9999999958156,149.799999600423,-220.342109236683));
#523=CARTESIAN_POINT('',(-24.9999999958156,149.799999600423,-218.842109236683));
#524=CARTESIAN_POINT('',(-24.9999999958156,149.799999600423,-221.842109236683));
#525=CARTESIAN_POINT('',(-24.9999999958157,163.799999600423,-220.342109236683));
#526=CARTESIAN_POINT('',(-24.9999999958157,158.799999600423,-220.342109236683));
#527=CARTESIAN_POINT('',(-24.9999999958157,163.799999600423,-220.342109236683));
#528=CARTESIAN_POINT('',(-24.9999999958157,158.799999600423,-220.342109236683));
#529=CARTESIAN_POINT('',(-24.9999999958157,158.799999600423,-218.842109236683));
#530=CARTESIAN_POINT('',(-24.9999999958157,158.799999600423,-221.842109236683));
#531=CARTESIAN_POINT('',(-24.9999999958156,145.070599600423,-220.342109236683));
#532=CARTESIAN_POINT('',(-24.9999999958156,145.070599600423,-218.842109236683));
#533=CARTESIAN_POINT('',(-24.9999999958156,145.070599600423,-221.842109236683));
#534=CARTESIAN_POINT('',(-24.9999999958156,149.799999600423,-218.842109236683));
#535=CARTESIAN_POINT('',(-24.9999999958156,149.799999600423,-221.842109236683));
#536=CARTESIAN_POINT('',(-24.9999999958156,145.070599600423,-220.342109236683));
#537=CARTESIAN_POINT('',(-24.9999999958157,163.529399600423,-220.342109236683));
#538=CARTESIAN_POINT('',(-24.9999999958157,163.529399600423,-218.842109236683));
#539=CARTESIAN_POINT('',(-24.9999999958157,163.529399600423,-221.842109236683));
#540=CARTESIAN_POINT('',(-24.9999999958157,158.799999600423,-218.842109236683));
#541=CARTESIAN_POINT('',(-24.9999999958157,158.799999600423,-221.842109236683));
#542=CARTESIAN_POINT('',(-24.9999999958157,163.529399600423,-220.342109236683));
#543=CARTESIAN_POINT('',(-24.9999999958157,157.799999600423,-220.342109236683));
#544=CARTESIAN_POINT('',(-21.9399999958157,150.799999600423,-217.282109236683));
#545=CARTESIAN_POINT('',(-24.9999999958157,157.799999600423,-220.342109236683));
#546=CARTESIAN_POINT('',(-28.0599999958157,157.799999600423,-217.282109236683));
#547=CARTESIAN_POINT('',(-24.9999999958156,149.799999600423,-220.342109236683));
#548=CARTESIAN_POINT('',(-24.9999999958156,149.799999600423,-220.342109236683));
#549=CARTESIAN_POINT('',(-23.7460119958156,144.799999600423,-219.088121236683));
#550=CARTESIAN_POINT('',(-24.9999999958157,158.799999600423,-220.342109236683));
#551=CARTESIAN_POINT('',(-24.9999999958157,158.799999600423,-220.342109236683));
#552=CARTESIAN_POINT('',(-26.2539879958157,163.799999600423,-219.088121236683));
#553=CARTESIAN_POINT('',(-24.9999999958156,144.799999600423,-220.342109236683));
#554=CARTESIAN_POINT('',(-24.9999999958156,149.799999600423,-220.342109236683));
#555=CARTESIAN_POINT('',(-24.9999999958156,144.799999600423,-220.342109236683));
#556=CARTESIAN_POINT('',(-24.9999999958156,149.799999600423,-220.342109236683));
#557=CARTESIAN_POINT('',(-24.9999999958157,163.799999600423,-220.342109236683));
#558=CARTESIAN_POINT('',(-24.9999999958157,158.799999600423,-220.342109236683));
#559=CARTESIAN_POINT('',(-24.9999999958157,163.799999600423,-220.342109236683));
#560=CARTESIAN_POINT('',(-24.9999999958157,158.799999600423,-220.342109236683));
#561=CARTESIAN_POINT('',(0.,0.,0.));
#562=CARTESIAN_POINT('',(0.,0.,0.));
#563=(
GEOMETRIC_REPRESENTATION_CONTEXT(3)
GLOBAL_UNCERTAINTY_ASSIGNED_CONTEXT((#565))
GLOBAL_UNIT_ASSIGNED_CONTEXT((#571,#569,#567))
REPRESENTATION_CONTEXT('','')
);
#564=(
GEOMETRIC_REPRESENTATION_CONTEXT(3)
GLOBAL_UNCERTAINTY_ASSIGNED_CONTEXT((#566))
GLOBAL_UNIT_ASSIGNED_CONTEXT((#572,#570,#568))
REPRESENTATION_CONTEXT('','')
);
#565=UNCERTAINTY_MEASURE_WITH_UNIT(LENGTH_MEASURE(0.001),#571,'TOL_CRV',
'CONFUSED CURVE UNCERTAINTY');
#566=UNCERTAINTY_MEASURE_WITH_UNIT(LENGTH_MEASURE(0.001),#572,'TOL_CRV',
'CONFUSED CURVE UNCERTAINTY');
#567=(
SI_UNIT($,.STERADIAN.)
SOLID_ANGLE_UNIT()
NAMED_UNIT(*)
);
#568=(
SI_UNIT($,.STERADIAN.)
SOLID_ANGLE_UNIT()
NAMED_UNIT(*)
);
#569=(
PLANE_ANGLE_UNIT()
NAMED_UNIT(*)
SI_UNIT($,.RADIAN.)
);
#570=(
PLANE_ANGLE_UNIT()
NAMED_UNIT(*)
SI_UNIT($,.RADIAN.)
);
#571=(
LENGTH_UNIT()
NAMED_UNIT(*)
SI_UNIT(.MILLI.,.METRE.)
);
#572=(
LENGTH_UNIT()
NAMED_UNIT(*)
SI_UNIT(.MILLI.,.METRE.)
);
ENDSEC;
END-ISO-10303-21;
